ISO-10303-21;
HEADER;
FILE_DESCRIPTION (( 'STEP AP203' ),
    '1' );
FILE_NAME ('MHWP-12.7-780.STEP',
    '2020-12-22T09:25:27',
    ( '' ),
    ( '' ),
    'SwSTEP 2.0',
    'SolidWorks 2020',
    '' );
FILE_SCHEMA (( 'CONFIG_CONTROL_DESIGN' ));
ENDSEC;

DATA;
#1 = DESIGN_CONTEXT ( 'detailed design', #146, 'design' ) ;
#2 = AXIS2_PLACEMENT_3D ( 'NONE', #151, #31, #60 ) ;
#3 = DIRECTION ( 'NONE',  ( -1.000000000000000000, -0.000000000000000000, -0.000000000000000000 ) ) ;
#4 = APPROVAL_DATE_TIME ( #99, #8 ) ;
#5 = CC_DESIGN_DATE_AND_TIME_ASSIGNMENT ( #29, #130, ( #105 ) ) ;
#6 = APPROVAL_ROLE ( '' ) ;
#7 = LOCAL_TIME ( 17, 25, 27.00000000000000000, #113 ) ;
#8 = APPROVAL ( #115, 'UNSPECIFIED' ) ;
#9 = PERSON_AND_ORGANIZATION ( #173, #74 ) ;
#10 = DIRECTION ( 'NONE',  ( -1.000000000000000000, 0.000000000000000000, -0.000000000000000000 ) ) ;
#11 = PLANE ( 'NONE',  #154 ) ;
#12 = ORIENTED_EDGE ( 'NONE', *, *, #41, .T. ) ;
#13 = ORIENTED_EDGE ( 'NONE', *, *, #37, .F. ) ;
#14 = ADVANCED_FACE ( 'NONE', ( #22 ), #135, .T. ) ;
#15 = PERSON_AND_ORGANIZATION ( #173, #74 ) ;
#16 = LOCAL_TIME ( 17, 25, 27.00000000000000000, #127 ) ;
#17 = CARTESIAN_POINT ( 'NONE',  ( -4.102566777143633281E-16, 7.776507174585692163E-16, -6.349999999999999645 ) ) ;
#18 = APPROVAL_STATUS ( 'not_yet_approved' ) ;
#19 = CIRCLE ( 'NONE', #39, 6.349999999999999645 ) ;
#20 = VECTOR ( 'NONE', #153, 1000.000000000000000 ) ;
#21 = ORIENTED_EDGE ( 'NONE', *, *, #122, .F. ) ;
#22 = FACE_OUTER_BOUND ( 'NONE', #70, .T. ) ;
#23 = DIRECTION ( 'NONE',  ( -1.000000000000000000, -0.000000000000000000, -0.000000000000000000 ) ) ;
#24 = ADVANCED_FACE ( 'NONE', ( #162 ), #11, .F. ) ;
#25 = DIRECTION ( 'NONE',  ( -1.000000000000000000, -0.000000000000000000, -0.000000000000000000 ) ) ;
#26 = PLANE ( 'NONE',  #97 ) ;
#27 = LINE ( 'NONE', #98, #102 ) ;
#28 = APPROVAL_DATE_TIME ( #94, #132 ) ;
#29 = DATE_AND_TIME ( #83, #109 ) ;
#30 = APPROVAL_DATE_TIME ( #104, #76 ) ;
#31 = DIRECTION ( 'NONE',  ( -1.000000000000000000, -0.000000000000000000, -0.000000000000000000 ) ) ;
#32 = ORIENTED_EDGE ( 'NONE', *, *, #71, .F. ) ;
#33 = AXIS2_PLACEMENT_3D ( 'NONE', #36, #155, #174 ) ;
#34 = PERSON_AND_ORGANIZATION_ROLE ( 'design_owner' ) ;
#35 = CYLINDRICAL_SURFACE ( 'NONE', #149, 6.349999999999999645 ) ;
#36 = CARTESIAN_POINT ( 'NONE',  ( 1.999999999999999112, 0.000000000000000000, 0.000000000000000000 ) ) ;
#37 = EDGE_CURVE ( 'NONE', #90, #133, #75, .T. ) ;
#38 = DIRECTION ( 'NONE',  ( 0.000000000000000000, 0.000000000000000000, 1.000000000000000000 ) ) ;
#39 = AXIS2_PLACEMENT_3D ( 'NONE', #140, #23, #62 ) ;
#40 = DATE_TIME_ROLE ( 'creation_date' ) ;
#41 = EDGE_CURVE ( 'NONE', #108, #161, #85, .T. ) ;
#42 = CC_DESIGN_PERSON_AND_ORGANIZATION_ASSIGNMENT ( #56, #103, ( #120 ) ) ;
#43 = PERSON_AND_ORGANIZATION_ROLE ( 'classification_officer' ) ;
#44 = ORIENTED_EDGE ( 'NONE', *, *, #122, .T. ) ;
#45 = PRODUCT_RELATED_PRODUCT_CATEGORY ( 'detail', '', ( #92 ) ) ;
#46 = CC_DESIGN_APPROVAL ( #76, ( #105 ) ) ;
#47 = ORIENTED_EDGE ( 'NONE', *, *, #41, .F. ) ;
#48 = CC_DESIGN_PERSON_AND_ORGANIZATION_ASSIGNMENT ( #66, #100, ( #80 ) ) ;
#49 = ORIENTED_EDGE ( 'NONE', *, *, #157, .F. ) ;
#50 = DIRECTION ( 'NONE',  ( 1.000000000000000000, 0.000000000000000000, 0.000000000000000000 ) ) ;
#51 = APPROVAL_PERSON_ORGANIZATION ( #15, #132, #52 ) ;
#52 = APPROVAL_ROLE ( '' ) ;
#53 = CARTESIAN_POINT ( 'NONE',  ( 1.999999999999999112, 7.776507174585692163E-16, -6.349999999999999645 ) ) ;
#54 = MECHANICAL_CONTEXT ( 'NONE', #150, 'mechanical' ) ;
#55 = AXIS2_PLACEMENT_3D ( 'NONE', #142, #121, #50 ) ;
#56 = PERSON_AND_ORGANIZATION ( #173, #74 ) ;
#57 = EDGE_CURVE ( 'NONE', #133, #161, #27, .T. ) ;
#58 = MANIFOLD_SOLID_BREP ( 'Ðý×', #165 ) ;
#59 = APPROVAL_PERSON_ORGANIZATION ( #68, #8, #143 ) ;
#60 = DIRECTION ( 'NONE',  ( 0.000000000000000000, 0.000000000000000000, 1.000000000000000000 ) ) ;
#61 = EDGE_LOOP ( 'NONE', ( #136, #12 ) ) ;
#62 = DIRECTION ( 'NONE',  ( 0.000000000000000000, 0.000000000000000000, 1.000000000000000000 ) ) ;
#63 = APPLICATION_PROTOCOL_DEFINITION ( 'international standard', 'config_control_design', 1994, #150 ) ;
#64 = FACE_OUTER_BOUND ( 'NONE', #61, .T. ) ;
#65 = ADVANCED_BREP_SHAPE_REPRESENTATION ( 'MHWP-12.7-780', ( #58, #55 ), #144 ) ;
#66 = PERSON_AND_ORGANIZATION ( #173, #74 ) ;
#67 = ADVANCED_FACE ( 'NONE', ( #168 ), #35, .T. ) ;
#68 = PERSON_AND_ORGANIZATION ( #173, #74 ) ;
#69 = CALENDAR_DATE ( 2020, 22, 12 ) ;
#70 = EDGE_LOOP ( 'NONE', ( #44, #72, #49, #147 ) ) ;
#71 = EDGE_CURVE ( 'NONE', #90, #108, #111, .T. ) ;
#72 = ORIENTED_EDGE ( 'NONE', *, *, #71, .T. ) ;
#73 = EDGE_LOOP ( 'NONE', ( #32, #117, #107, #47 ) ) ;
#74 = ORGANIZATION ( 'UNSPECIFIED', 'UNSPECIFIED', '' ) ;
#75 = CIRCLE ( 'NONE', #106, 6.349999999999999645 ) ;
#76 = APPROVAL ( #18, 'UNSPECIFIED' ) ;
#77 = DIRECTION ( 'NONE',  ( 0.000000000000000000, 0.000000000000000000, -1.000000000000000000 ) ) ;
#78 = PERSON_AND_ORGANIZATION ( #173, #74 ) ;
#79 = CARTESIAN_POINT ( 'NONE',  ( 0.000000000000000000, 0.000000000000000000, 0.000000000000000000 ) ) ;
#80 = PRODUCT_DEFINITION_FORMATION_WITH_SPECIFIED_SOURCE ( 'ANY', '', #92, .NOT_KNOWN. ) ;
#81 = DIRECTION ( 'NONE',  ( 1.000000000000000000, 0.000000000000000000, 0.000000000000000000 ) ) ;
#82 = CARTESIAN_POINT ( 'NONE',  ( 0.000000000000000000, 7.776507174585692163E-16, -6.349999999999999645 ) ) ;
#83 = CALENDAR_DATE ( 2020, 22, 12 ) ;
#84 = PERSON_AND_ORGANIZATION ( #173, #74 ) ;
#85 = CIRCLE ( 'NONE', #134, 6.349999999999999645 ) ;
#86 = DATE_AND_TIME ( #69, #16 ) ;
#87 = CALENDAR_DATE ( 2020, 22, 12 ) ;
#88 = CIRCLE ( 'NONE', #33, 6.349999999999999645 ) ;
#89 = CARTESIAN_POINT ( 'NONE',  ( 1.999999999999999556, 6.349999999999999645, 0.000000000000000000 ) ) ;
#90 = VERTEX_POINT ( 'NONE', #53 ) ;
#91 = APPLICATION_PROTOCOL_DEFINITION ( 'international standard', 'config_control_design', 1994, #146 ) ;
#92 = PRODUCT ( 'MHWP-12.7-780', 'MHWP-12.7-780', '', ( #54 ) ) ;
#93 = CC_DESIGN_PERSON_AND_ORGANIZATION_ASSIGNMENT ( #78, #34, ( #92 ) ) ;
#94 = DATE_AND_TIME ( #166, #128 ) ;
#95 = CARTESIAN_POINT ( 'NONE',  ( 1.999999999999999112, 0.000000000000000000, 6.349999999999999645 ) ) ;
#96 = CC_DESIGN_SECURITY_CLASSIFICATION ( #105, ( #80 ) ) ;
#97 = AXIS2_PLACEMENT_3D ( 'NONE', #163, #81, #77 ) ;
#98 = CARTESIAN_POINT ( 'NONE',  ( 0.000000000000000000, 0.000000000000000000, 6.349999999999999645 ) ) ;
#99 = DATE_AND_TIME ( #87, #164 ) ;
#100 = PERSON_AND_ORGANIZATION_ROLE ( 'design_supplier' ) ;
#101 = SHAPE_DEFINITION_REPRESENTATION ( #170, #65 ) ;
#102 = VECTOR ( 'NONE', #25, 1000.000000000000000 ) ;
#103 = PERSON_AND_ORGANIZATION_ROLE ( 'creator' ) ;
#104 = DATE_AND_TIME ( #160, #7 ) ;
#105 = SECURITY_CLASSIFICATION ( '', '', #131 ) ;
#106 = AXIS2_PLACEMENT_3D ( 'NONE', #169, #119, #171 ) ;
#107 = ORIENTED_EDGE ( 'NONE', *, *, #57, .T. ) ;
#108 = VERTEX_POINT ( 'NONE', #17 ) ;
#109 = LOCAL_TIME ( 17, 25, 27.00000000000000000, #159 ) ;
#110 = COORDINATED_UNIVERSAL_TIME_OFFSET ( 8, 0, .AHEAD. ) ;
#111 = LINE ( 'NONE', #82, #20 ) ;
#112 = CC_DESIGN_DATE_AND_TIME_ASSIGNMENT ( #86, #40, ( #120 ) ) ;
#113 = COORDINATED_UNIVERSAL_TIME_OFFSET ( 8, 0, .AHEAD. ) ;
#114 = UNCERTAINTY_MEASURE_WITH_UNIT (LENGTH_MEASURE( 1.000000000000000082E-05 ), #139, 'distance_accuracy_value', 'NONE');
#115 = APPROVAL_STATUS ( 'not_yet_approved' ) ;
#116 = PERSON_AND_ORGANIZATION_ROLE ( 'creator' ) ;
#117 = ORIENTED_EDGE ( 'NONE', *, *, #37, .T. ) ;
#118 = CC_DESIGN_APPROVAL ( #132, ( #120 ) ) ;
#119 = DIRECTION ( 'NONE',  ( -1.000000000000000000, -0.000000000000000000, -0.000000000000000000 ) ) ;
#120 = PRODUCT_DEFINITION ( 'UNKNOWN', '', #80, #1 ) ;
#121 = DIRECTION ( 'NONE',  ( 0.000000000000000000, 0.000000000000000000, 1.000000000000000000 ) ) ;
#122 = EDGE_CURVE ( 'NONE', #133, #90, #88, .T. ) ;
#123 = APPROVAL_STATUS ( 'not_yet_approved' ) ;
#124 =( NAMED_UNIT ( * ) SI_UNIT ( $, .STERADIAN. ) SOLID_ANGLE_UNIT ( ) );
#125 = ADVANCED_FACE ( 'NONE', ( #64 ), #26, .F. ) ;
#126 = CC_DESIGN_PERSON_AND_ORGANIZATION_ASSIGNMENT ( #84, #116, ( #80 ) ) ;
#127 = COORDINATED_UNIVERSAL_TIME_OFFSET ( 8, 0, .AHEAD. ) ;
#128 = LOCAL_TIME ( 17, 25, 27.00000000000000000, #110 ) ;
#129 = COORDINATED_UNIVERSAL_TIME_OFFSET ( 8, 0, .AHEAD. ) ;
#130 = DATE_TIME_ROLE ( 'classification_date' ) ;
#131 = SECURITY_CLASSIFICATION_LEVEL ( 'unclassified' ) ;
#132 = APPROVAL ( #123, 'UNSPECIFIED' ) ;
#133 = VERTEX_POINT ( 'NONE', #95 ) ;
#134 = AXIS2_PLACEMENT_3D ( 'NONE', #138, #3, #167 ) ;
#135 = CYLINDRICAL_SURFACE ( 'NONE', #2, 6.349999999999999645 ) ;
#136 = ORIENTED_EDGE ( 'NONE', *, *, #157, .T. ) ;
#137 = CC_DESIGN_APPROVAL ( #8, ( #80 ) ) ;
#138 = CARTESIAN_POINT ( 'NONE',  ( -4.102566777143633281E-16, 0.000000000000000000, 0.000000000000000000 ) ) ;
#139 =( LENGTH_UNIT ( ) NAMED_UNIT ( * ) SI_UNIT ( .MILLI., .METRE. ) );
#140 = CARTESIAN_POINT ( 'NONE',  ( -4.102566777143633281E-16, 0.000000000000000000, 0.000000000000000000 ) ) ;
#141 = CARTESIAN_POINT ( 'NONE',  ( -4.102566777143633281E-16, 0.000000000000000000, 6.349999999999999645 ) ) ;
#142 = CARTESIAN_POINT ( 'NONE',  ( 0.000000000000000000, 0.000000000000000000, 0.000000000000000000 ) ) ;
#143 = APPROVAL_ROLE ( '' ) ;
#144 =( GEOMETRIC_REPRESENTATION_CONTEXT ( 3 ) GLOBAL_UNCERTAINTY_ASSIGNED_CONTEXT ( ( #114 ) ) GLOBAL_UNIT_ASSIGNED_CONTEXT ( ( #139, #175, #124 ) ) REPRESENTATION_CONTEXT ( 'NONE', 'WORKASPACE' ) );
#145 = DIRECTION ( 'NONE',  ( -0.000000000000000000, 0.000000000000000000, 1.000000000000000000 ) ) ;
#146 = APPLICATION_CONTEXT ( 'configuration controlled 3d designs of mechanical parts and assemblies' ) ;
#147 = ORIENTED_EDGE ( 'NONE', *, *, #57, .F. ) ;
#148 = APPROVAL_PERSON_ORGANIZATION ( #9, #76, #6 ) ;
#149 = AXIS2_PLACEMENT_3D ( 'NONE', #79, #152, #38 ) ;
#150 = APPLICATION_CONTEXT ( 'configuration controlled 3d designs of mechanical parts and assemblies' ) ;
#151 = CARTESIAN_POINT ( 'NONE',  ( 0.000000000000000000, 0.000000000000000000, 0.000000000000000000 ) ) ;
#152 = DIRECTION ( 'NONE',  ( -1.000000000000000000, -0.000000000000000000, -0.000000000000000000 ) ) ;
#153 = DIRECTION ( 'NONE',  ( -1.000000000000000000, -0.000000000000000000, -0.000000000000000000 ) ) ;
#154 = AXIS2_PLACEMENT_3D ( 'NONE', #89, #10, #145 ) ;
#155 = DIRECTION ( 'NONE',  ( -1.000000000000000000, -0.000000000000000000, -0.000000000000000000 ) ) ;
#156 = PERSON_AND_ORGANIZATION ( #173, #74 ) ;
#157 = EDGE_CURVE ( 'NONE', #161, #108, #19, .T. ) ;
#158 = CC_DESIGN_PERSON_AND_ORGANIZATION_ASSIGNMENT ( #156, #43, ( #105 ) ) ;
#159 = COORDINATED_UNIVERSAL_TIME_OFFSET ( 8, 0, .AHEAD. ) ;
#160 = CALENDAR_DATE ( 2020, 22, 12 ) ;
#161 = VERTEX_POINT ( 'NONE', #141 ) ;
#162 = FACE_OUTER_BOUND ( 'NONE', #172, .T. ) ;
#163 = CARTESIAN_POINT ( 'NONE',  ( -2.051283388571816641E-16, 6.349999999999999645, 0.000000000000000000 ) ) ;
#164 = LOCAL_TIME ( 17, 25, 27.00000000000000000, #129 ) ;
#165 = CLOSED_SHELL ( 'NONE', ( #14, #67, #24, #125 ) ) ;
#166 = CALENDAR_DATE ( 2020, 22, 12 ) ;
#167 = DIRECTION ( 'NONE',  ( 0.000000000000000000, 0.000000000000000000, 1.000000000000000000 ) ) ;
#168 = FACE_OUTER_BOUND ( 'NONE', #73, .T. ) ;
#169 = CARTESIAN_POINT ( 'NONE',  ( 1.999999999999999112, 0.000000000000000000, 0.000000000000000000 ) ) ;
#170 = PRODUCT_DEFINITION_SHAPE ( 'NONE', 'NONE',  #120 ) ;
#171 = DIRECTION ( 'NONE',  ( 0.000000000000000000, 0.000000000000000000, 1.000000000000000000 ) ) ;
#172 = EDGE_LOOP ( 'NONE', ( #21, #13 ) ) ;
#173 = PERSON ( 'UNSPECIFIED', 'UNSPECIFIED', 'UNSPECIFIED', ('UNSPECIFIED'), ('UNSPECIFIED'), ('UNSPECIFIED') ) ;
#174 = DIRECTION ( 'NONE',  ( 0.000000000000000000, 0.000000000000000000, 1.000000000000000000 ) ) ;
#175 =( NAMED_UNIT ( * ) PLANE_ANGLE_UNIT ( ) SI_UNIT ( $, .RADIAN. ) );
ENDSEC;
END-ISO-10303-21;
